A New Found Glory Ballad For The Lost Romantics (Bass tab) Akorları

A New Found Glory Ballad For The Lost Romantics (Bass tab) Şarkısının Akorları

Pre-Chorus: {0:11} (x2) 
G------------------
D------------------
A------------------
E-3333333-1111111--


Verse: {0:19} (x3)
G---------------------
D------33333----------
A-33333-----33333-----
E----------------11111


{0:30} Pre-Chorus (x2)


Chorus: {0:38} (x2)
G----------------------------------
D----------------------------------
A-3--3------------3--3-----------5-
E-----0--01--11--1----0--01-11111--


Fill: {0:54} (x2)
G------------------------|--
D------------------------|--
A-33333------------------|3~
E-------00000-11111-11111|--


{1:09} Pre-Chorus (x2)

{1:17} Chorus (x2)

{1:32} Fill (x2)


Breakdown: {1:47} (x2) After 1st Time|2nd Time
G----|------------------------------------|------------|----
D----|------------------------------------|------------|----
A-333|333333------333333------333333------|333333------|----
E----|------111111------111111------111111|------111101|1--1


{2:03} Pre-Chorus (x2)


Ending Part 1: {2:17} (x2)
G----------
D----------
A------5-3~
E-11111----


Ending Part 2: {2:26} (x12)
G---------------------
D---------------------
A-33--3---------------
E------00--011--111--1

Bir Cevap Yazın

E-posta hesabınız yayımlanmayacak.