Amorphis Cares Akorları

Amorphis Cares Şarkısının Akorları

Riff 1
Play 2x Guitar 1
e|-------------------------|------------------------------------------------|
B|-------------------------|------------------------------------------------|
G|---7---7---7----3--2-0h2-|---7---7---7----3--2-0h2---7---7---7----3--2-0h2|
D|-------------------------|------------------------------------------------|
A|-5---5---5---5-----------|-5---5---5---5-----------5---5---5---5----------|
E|-------------------------|------------------------------------------------|

Guitar 2
e|------------------------------------------------|
B|------------------------------------------------|
G|------------------------------------------------|
D|--7----------------------7--7-------------------|
A|--5----------------------5--5-------------------|
E|------------------------------------------------|


Riff 2

Guitar 1 Play 4x
e|-------------------------------------------------|
B|-------------------------------------------------|
G|---7---7---7----3--2-0h2---7---7---7----3--2-0h2-|
D|-------------------------------------------------|
A|-5---5---5---5-----------5---5---5---5-----------|
E|-------------------------------------------------|

Guitar 2
e|-------------------------------------------------|
B|-------------------------------------------------|
G|-------------------------------------------------|
D|-7-7-7-7--7-7--8-8-8-8-8-7-7-7-7--7-7--8-8-8-8-8-|
A|-5-5-5-5--5-5--6-6-6-6-6-5-5-5-5--5-5--6-6-6-6-6-|
E|-------------------------------------------------|
. . . . . . . . . . . . . . . . . . . . . .

Riff 3

Guitar 1 ? Guitar 2 Play 4x
e|--------------------|----------------------------|
B|--------------------|----------------------------|
G|--------------------|----------------------------|
D|--------------------|-12----11----8----7---------|
A|--------------------|-10----9-----6----5---------|
E|--------------------|----------------------------|


Play riff 2

Play riff 3

Play riff 2

Riff 4
Guitar 1 Play 8x Guitar 2 ?
e|---------------------------------|---------------------------------|
B|------------------------------7--|---------------------------------|
G|--8----11--10p11--8-----6--------|---------------------------------|
D|---------------------8-----8-----|---------------------------------|
A|---------------------------------|---------------------------------|
E|---------------------------------|---------------------------------|

Riff 5
Guitar 1
e|------------------------------------------------------|
B|------------------------------------------------------|
G|-7--7--5p7p5--3--2------------------------------------|
D|--------------------3----0--4--7--7b--4--5--0--4--5---|
A|------------------------------------------------------|
E|------------------------------------------------------|

Guitar 2
e|------------------------------------------------------|
B|------------------------------------------------------|
G|------------------------------------------------------|
D|--------------------------------------------7---------|
A|--------------------3----3---------------5--5--4--5---|
E|--------------------1----1---------------3-----2--3---|

Bir Cevap Yazın

E-posta hesabınız yayımlanmayacak.