Amorphis Dont Fear The Reaper(Tab) Tabları

Amorphis Dont Fear The Reaper(Tab) Şarkısının Tabı

Guitar

E||------------------|------------------|------------------|------------------|
B||------------------|------------------|------------------|------------------|
G||------------------|------------------|------------------|------------------|
D||------------------|------------------|------------------|------------------|
A||------------------|------------------|------------------|------------------|
E||------------------|------------------|------------------|------------------|



--------------------------|--------------------------|
--------------------------|--------------------------|
--9--9--9--9--7--7--7--7--|--5--5--5--5--7--7--7--7--|
--9--9--9--9--7--7--7--7--|--5--5--5--5--7--7--7--7--|
--7--7--7--7--5--5--5--5--|--3--3--3--3--5--5--5--5--|
--------------------------|--------------------------|



--------------------------|--------------------------|
--------------------------|--------------------------|
--9--9--9--9--7--7--7--7--|--5--5--5--5--7--7--7--7--|
--9--9--9--9--7--7--7--7--|--5--5--5--5--7--7--7--7--|
--7--7--7--7--5--5--5--5--|--3--3--3--3--5--5--5--5--|
--------------------------|--------------------------|



--------------------------|--------------------------|
--------------------------|--------------------------|
--9--9--9--9--7--7--7--7--|--5--5--5--5--7--7--7--7--|
--9--9--9--9--7--7--7--7--|--5--5--5--5--7--7--7--7--|
--7--7--7--7--5--5--5--5--|--3--3--3--3--5--5--5--5--|
--------------------------|--------------------------|



--------------------------|--------------------------|
--------------------------|--------------------------|
--9--9--9--9--7--7--7--7--|--5--5--5--5--7--7--7--7--|
--9--9--9--9--7--7--7--7--|--5--5--5--5--7--7--7--7--|
--7--7--7--7--5--5--5--5--|--3--3--3--3--5--5--5--5--|
--------------------------|--------------------------|



--------------------------|--------------------------|
--------------------------|--------------------------|
--9--9--9--9--7--7--7--7--|--5--5--5--5--7--7--7--7--|
--9--9--9--9--7--7--7--7--|--5--5--5--5--7--7--7--7--|
--7--7--7--7--5--5--5--5--|--3--3--3--3--5--5--5--5--|
--------------------------|--------------------------|



--------------------------|--------------------------|------------------|
--------------------------|--------------------------|------------------|
--9--9--9--9--7--7--7--7--|--5--5--5--5--7--7--7--7--|------------------|
--9--9--9--9--7--7--7--7--|--5--5--5--5--7--7--7--7--|------------------|
--7--7--7--7--5--5--5--5--|--3--3--3--3--5--5--5--5--|------------------|
--------------------------|--------------------------|------------------|



--------------------------|--------------------------|
--------------------------|--------------------------|
--------------------------|--------------------------|
--5--5--5--5--7--7--7--7--|--9--9--9--9--7--7--7--7--|
--3--3--3--3--5--5--5--5--|--7--7--7--7--5--5--5--5--|
--------------------------|--------------------------|



--------------------------|--------------------------|
--------------------------|--------------------------|
--------------------------|--------------------------|
--5--5--5--5--7--7--7--7--|--9--9--9--9--7--7--7--7--|
--3--3--3--3--5--5--5--5--|--7--7--7--7--5--5--5--5--|
--------------------------|--------------------------|



--------------------------|--------------------------|
--------------------------|--------------------------|
--------------------------|--------------------------|
--5--5--5--5--7--7--7--7--|--9--9--9--9--7--7--7--7--|
--3--3--3--3--5--5--5--5--|--7--7--7--7--5--5--5--5--|
--------------------------|--------------------------|



--------------------------|--------------------------|
--------------------------|--------------------------|
--------------------------|--------------------------|
--5--5--5--5--7--7--7--7--|--9--9--9--9--7--7--7--7--|
--3--3--3--3--5--5--5--5--|--7--7--7--7--5--5--5--5--|
--------------------------|--------------------------|



--------------------------|--------------------------|
--------------------------|--------------------------|
--------------------------|--------------------------|
--5--5--5--5--7--7--7--7--|--9--9--9--9--7--7--7--7--|
--3--3--3--3--5--5--5--5--|--7--7--7--7--5--5--5--5--|
--------------------------|--------------------------|



--------------------------|--------------------------|
--------------------------|--------------------------|
--------------------------|--------------------------|
--5--5--5--5--7--7--7--7--|--9--9--9--9--7--7--7--7--|
--3--3--3--3--5--5--5--5--|--7--7--7--7--5--5--5--5--|
--------------------------|--------------------------|



--------------------------|--------------------------|
--------------------------|--------------------------|
--------------------------|--------------------------|
--5--5--5--5--7--7--7--7--|--9--9--9--9--7--7--7--7--|
--3--3--3--3--5--5--5--5--|--7--7--7--7--5--5--5--5--|
--------------------------|--------------------------|



--------------------------|--------------------------|
--------------------------|--------------------------|
--------------------------|--------------------------|
--5--5--5--5--7--7--7--7--|--9--9--9--9--7--7--7--7--|
--3--3--3--3--5--5--5--5--|--7--7--7--7--5--5--5--5--|
--------------------------|--------------------------|



--------------------------|--------------------------|
--------------------------|--------------------------|
--------------------------|--------------------------|
--5--5--5--5--7--7--7--7--|--9--9--9--9--7--7--7--7--|
--3--3--3--3--5--5--5--5--|--7--7--7--7--5--5--5--5--|
--------------------------|--------------------------|



--------------------------|-------------------|------------------|
--------------------------|-------------------|------------------|
--------------------------|-------------------|------------------|
--5--5--5--5--7--7--7--7--|--9----------------|------------------|
--3--3--3--3--5--5--5--5--|--7----------------|------------------|
--------------------------|-------------------|------------------|



------------------|------------------|--------------------------|
------------------|------------------|--------------------------|
------------------|------------------|--9--9--9--9--7--7--7--7--|
------------------|------------------|--9--9--9--9--7--7--7--7--|
------------------|------------------|--7--7--7--7--5--5--5--5--|
------------------|------------------|--------------------------|



--------------------------|--------------------------|
--------------------------|--------------------------|
--5--5--5--5--7--7--7--7--|--9--9--9--9--7--7--7--7--|
--5--5--5--5--7--7--7--7--|--9--9--9--9--7--7--7--7--|
--3--3--3--3--5--5--5--5--|--7--7--7--7--5--5--5--5--|
--------------------------|--------------------------|



--------------------------|--------------------------|
--------------------------|--------------------------|
--5--5--5--5--7--7--7--7--|--9--9--9--9--7--7--7--7--|
--5--5--5--5--7--7--7--7--|--9--9--9--9--7--7--7--7--|
--3--3--3--3--5--5--5--5--|--7--7--7--7--5--5--5--5--|
--------------------------|--------------------------|



--------------------------|--------------------------|
--------------------------|--------------------------|
--5--5--5--5--7--7--7--7--|--9--9--9--9--7--7--7--7--|
--5--5--5--5--7--7--7--7--|--9--9--9--9--7--7--7--7--|
--3--3--3--3--5--5--5--5--|--7--7--7--7--5--5--5--5--|
--------------------------|--------------------------|



--------------------------|--------------------------|
--------------------------|--------------------------|
--5--5--5--5--7--7--7--7--|--9--9--9--9--7--7--7--7--|
--5--5--5--5--7--7--7--7--|--9--9--9--9--7--7--7--7--|
--3--3--3--3--5--5--5--5--|--7--7--7--7--5--5--5--5--|
--------------------------|--------------------------|



--------------------------|------------------|------------------|
--------------------------|------------------|------------------|
--5--5--5--5--7--7--7--7--|------------------|------------------|
--5--5--5--5--7--7--7--7--|------------------|------------------|
--3--3--3--3--5--5--5--5--|------------------|------------------|
--------------------------|------------------|------------------|



--------------------------|--------------------------|
--------------------------|--------------------------|
--------------------------|--------------------------|
--5--5--5--5--7--7--7--7--|--9--9--9--9--7--7--7--7--|
--3--3--3--3--5--5--5--5--|--7--7--7--7--5--5--5--5--|
--------------------------|--------------------------|



--------------------------|--------------------------|
--------------------------|--------------------------|
--------------------------|--------------------------|
--5--5--5--5--7--7--7--7--|--9--9--9--9--7--7--7--7--|
--3--3--3--3--5--5--5--5--|--7--7--7--7--5--5--5--5--|
--------------------------|--------------------------|



--------------------------|--------------------------|
--------------------------|--------------------------|
--------------------------|--------------------------|
--5--5--5--5--7--7--7--7--|--9--9--9--9--7--7--7--7--|
--3--3--3--3--5--5--5--5--|--7--7--7--7--5--5--5--5--|
--------------------------|--------------------------|



--------------------------|--------------------------|
--------------------------|--------------------------|
--------------------------|--------------------------|
--5--5--5--5--7--7--7--7--|--9--9--9--9--7--7--7--7--|
--3--3--3--3--5--5--5--5--|--7--7--7--7--5--5--5--5--|
--------------------------|--------------------------|



--------------------------|--------------------------|
--------------------------|--------------------------|
--------------------------|--------------------------|
--5--5--5--5--7--7--7--7--|--9--9--9--9--7--7--7--7--|
--3--3--3--3--5--5--5--5--|--7--7--7--7--5--5--5--5--|
--------------------------|--------------------------|



--------------------------|--------------------------|
--------------------------|--------------------------|
--------------------------|--------------------------|
--5--5--5--5--7--7--7--7--|--9--9--9--9--7--7--7--7--|
--3--3--3--3--5--5--5--5--|--7--7--7--7--5--5--5--5--|
--------------------------|--------------------------|



--------------------------|--------------------------|
--------------------------|--------------------------|
--------------------------|--------------------------|
--5--5--5--5--7--7--7--7--|--9--9--9--9--7--7--7--7--|
--3--3--3--3--5--5--5--5--|--7--7--7--7--5--5--5--5--|
--------------------------|--------------------------|



--------------------------|--------------------------|
--------------------------|--------------------------|
--------------------------|--------------------------|
--5--5--5--5--7--7--7--7--|--9--9--9--9--7--7--7--7--|
--3--3--3--3--5--5--5--5--|--7--7--7--7--5--5--5--5--|
--------------------------|--------------------------|



--------------------------|--------------------------|
--------------------------|--------------------------|
--------------------------|--------------------------|
--5--5--5--5--7--7--7--7--|--9--9--9--9--7--7--7--7--|
--3--3--3--3--5--5--5--5--|--7--7--7--7--5--5--5--5--|
--------------------------|--------------------------|



--------------------------|-------------------|------------------|
--------------------------|-------------------|------------------|
--------------------------|-------------------|------------------|
--5--5--5--5--7--7--7--7--|--9----------------|------------------|
--3--3--3--3--5--5--5--5--|--7----------------|------------------|
--------------------------|-------------------|------------------|






--------------------------|--------------------------|
--------------------------|--------------------------|
--9--9--9--9--7--7--7--7--|--5--5--5--5--7--7--7--7--|
--9--9--9--9--7--7--7--7--|--5--5--5--5--7--7--7--7--|
--7--7--7--7--5--5--5--5--|--3--3--3--3--5--5--5--5--|
--------------------------|--------------------------|



--------------------------|--------------------------|
--------------------------|--------------------------|
--9--9--9--9--7--7--7--7--|--5--5--5--5--7--7--7--7--|
--9--9--9--9--7--7--7--7--|--5--5--5--5--7--7--7--7--|
--7--7--7--7--5--5--5--5--|--3--3--3--3--5--5--5--5--|
--------------------------|--------------------------|



--------------------------|--------------------------|
--------------------------|--------------------------|
--9--9--9--9--7--7--7--7--|--5--5--5--5--7--7--7--7--|
--9--9--9--9--7--7--7--7--|--5--5--5--5--7--7--7--7--|
--7--7--7--7--5--5--5--5--|--3--3--3--3--5--5--5--5--|
--------------------------|--------------------------|



--------------------------|--------------------------|
--------------------------|--------------------------|
--9--9--9--9--7--7--7--7--|--5--5--5--5--7--7--7--7--|
--9--9--9--9--7--7--7--7--|--5--5--5--5--7--7--7--7--|
--7--7--7--7--5--5--5--5--|--3--3--3--3--5--5--5--5--|
--------------------------|--------------------------|



--------------------------|--------------------------|
--------------------------|--------------------------|
--9--9--9--9--7--7--7--7--|--5--5--5--5--7--7--7--7--|
--9--9--9--9--7--7--7--7--|--5--5--5--5--7--7--7--7--|
--7--7--7--7--5--5--5--5--|--3--3--3--3--5--5--5--5--|
--------------------------|--------------------------|



--------------------------|--------------------------|------------------|
--------------------------|--------------------------|------------------|
--9--9--9--9--7--7--7--7--|--5--5--5--5--7--7--7--7--|------------------|
--9--9--9--9--7--7--7--7--|--5--5--5--5--7--7--7--7--|------------------|
--7--7--7--7--5--5--5--5--|--3--3--3--3--5--5--5--5--|------------------|
--------------------------|--------------------------|------------------|





------------------|--------------------------|--------------------------|
------------------|--------------------------|--------------------------|
------------------|--------------------------|--------------------------|
------------------|--5--5--5--5--7--7--7--7--|--9--9--9--9--7--7--7--7--|
------------------|--3--3--3--3--5--5--5--5--|--7--7--7--7--5--5--5--5--|
------------------|--------------------------|--------------------------|



--------------------------|--------------------------|
--------------------------|--------------------------|
--------------------------|--------------------------|
--5--5--5--5--7--7--7--7--|--9--9--9--9--7--7--7--7--|
--3--3--3--3--5--5--5--5--|--7--7--7--7--5--5--5--5--|
--------------------------|--------------------------|



--------------------------|--------------------------|
--------------------------|--------------------------|
--------------------------|--------------------------|
--5--5--5--5--7--7--7--7--|--9--9--9--9--7--7--7--7--|
--3--3--3--3--5--5--5--5--|--7--7--7--7--5--5--5--5--|
--------------------------|--------------------------|



--------------------------|--------------------------|
--------------------------|--------------------------|
--------------------------|--------------------------|
--5--5--5--5--7--7--7--7--|--9--9--9--9--7--7--7--7--|
--3--3--3--3--5--5--5--5--|--7--7--7--7--5--5--5--5--|
--------------------------|--------------------------|



--------------------------|--------------------------|
--------------------------|--------------------------|
--------------------------|--------------------------|
--5--5--5--5--7--7--7--7--|--9--9--9--9--7--7--7--7--|
--3--3--3--3--5--5--5--5--|--7--7--7--7--5--5--5--5--|
--------------------------|--------------------------|



--------------------------|--------------------------|
--------------------------|--------------------------|
--------------------------|--------------------------|
--5--5--5--5--7--7--7--7--|--9--9--9--9--7--7--7--7--|
--3--3--3--3--5--5--5--5--|--7--7--7--7--5--5--5--5--|
--------------------------|--------------------------|



--------------------------|--------------------------|
--------------------------|--------------------------|
--------------------------|--------------------------|
--5--5--5--5--7--7--7--7--|--9--9--9--9--7--7--7--7--|
--3--3--3--3--5--5--5--5--|--7--7--7--7--5--5--5--5--|
--------------------------|--------------------------|



--------------------------|--------------------------|
--------------------------|--------------------------|
--------------------------|--------------------------|
--5--5--5--5--7--7--7--7--|--9--9--9--9--7--7--7--7--|
--3--3--3--3--5--5--5--5--|--7--7--7--7--5--5--5--5--|
--------------------------|--------------------------|



--------------------------|--------------------------|
--------------------------|--------------------------|
--------------------------|--------------------------|
--5--5--5--5--7--7--7--7--|--9--9--9--9--7--7--7--7--|
--3--3--3--3--5--5--5--5--|--7--7--7--7--5--5--5--5--|
--------------------------|--------------------------|



--------------------------|-------------------|------------------|
--------------------------|-------------------|------------------|
--------------------------|-------------------|------------------|
--5--5--5--5--7--7--7--7--|--9----------------|------------------|
--3--3--3--3--5--5--5--5--|--7----------------|------------------|
--------------------------|-------------------|------------------|

Bir Cevap Yazın

E-posta hesabınız yayımlanmayacak.