Amorphis Drowned Maid Akorları

Amorphis Drowned Maid Şarkısının Akorları

Part 1          
D|---------------------------------------------------------------------------|
A|---------------------------------------------------------------------------|
F|---------------------------------------------------------------------------|
C|--------------------------------------------4-----4------------------------|
G|--------------------------------------------4-----4------------------------|
D|-777777777777-555555555555-333333333333-222-2-222-2------------------------|
| DUDUDUDUDUDU DUDUDUDUDUDU DUDUDUDUDUDU |
| |
D|---------------------------------------------------------------------------|
A|---------------------------------------------------------------------------|
F|---11--------------11-----------9------------11----------------------------|
C|&9-----&9----&14------&9---&12------&9--&11------&7------------------------|
G|---------------------------------------------------------------------------|
D|---------------------------------------------------------------------------|

Part 2
D|---------------------------------------------------------------------------|
A|---------------------------------------------------------------------------|
F|---------------------------------------------------------------------------|
C|-12-----------8------------7------------10---------------------------------|
G|-12-----------8------------7------------10---------------------------------|
D|-10-----------6------------5------------8----------------------------------|
| |
| |
D|---------------------------------------------------------------------------|
A|---10---------------10-----------10---------10-----------------------------|
F|&7-----&7---&12--------&7--&10-------&7--&9-----&5-------------------------|
C|---------------------------------------------------------------------------|
G|---------------------------------------------------------------------------|
D|---------------------------------------------------------------------------|


Part 3
D|---------------------------------------------------------------------------|
A|---------------------------------------------------------------------------|
F|---------------------------------------------------------------------------|
C|-9---------5----------5----------7-----------------------------------------|
G|-7---------3----------5----------7-----------------------------------------|
D|----------------------3----------5-----------------------------------------|
| |
| |
D|---------------------------------------------------------------------------|
A|---------------------------------------------------------------------------|
F|---------------------------------------------------------------------------|
C|----4-5------5-4h5---------------------------------------------------------|
G|&7-----------------7-------------------------------------------------------|
D|-----------8----------7-8-7h8p7--5-5-3-2-----------------------------------|


Part 4
D|---------------------------------------------|-----------------------------|
A|---------------------------------------------|-----------------------------|
F|---------------------------------------------|-----------------------------|
C|-3---------3----------6---------------5------|-2---------------------------|
G|-1---------3----------4---------------3------|-2---------------------------|
D|-----------2---------------------------------|-0---------------------------|
| |
| |
D|----8-9------9-8h9---------------------------|-----------------------------|
A|&11----------------11------------------------|-----------------------------|
F|-----------11---------10-11-10h11p10--8-8-6-5|-----------------------------|
C|---------------------------------------------|-----------------------------|
G|---------------------------------------------|-----------------------------|
D|---------------------------------------------|&11--------------------------|
Let note ring...

Part 5
D|---------------------------------------------------------------------------|
A|---------------------------------------------------------------------------|
F|---------------------------------------------------------------------------|
C|-2------------------------2------------------------------------------------|
G|-2------------------------2-------------------2-----------2-2-2-2----------|
D|-0------------------------0-------------------0-----------0-0-0-0----------|
| Mute heavily |
| |
D|---------------------------|-----------------------------------------------|
A|-----------------13--12--10|-----------------------------------------------|
F|--9-10-9h10p9-7------------|-----------------------------------------------|
C|---------------------------|-----------------------------------------------|
G|---------------------------|-----------------------------------------------|
D|---------------------------|-----------------------------------------------|


Part 6
D|---------------------------|----------------|------------------------------|
A|---------------------------|----------------|------------------------------|
F|---------------------------|----------------|------------------------------|
C|--3-------5---2------------|------3-------3-|-2----------------------------|
G|--3-------5---2---2-2-2-2--|------3-------3-|-2---2-2-2-2------------------|
D|--1---0---3---0---0-0-0-0--|-0-0--1--0-0--1-|-0---0-0-0-0------------------|
| ^^^^^^^^^^^^^^^^ ^^^^^^^^^^^^^^^^^^^^^^^^^^^^^^|
| Every 4th time Everytime, except for last. |
D|---------------------------|-----------------------------------------------|
A|-----------------13--12--10|-----------------------------------------------|
F|--9-10-9h10p9-7------------|-----------------------------------------------|
C|---------------------------|-----------------------------------------------|
G|---------------------------|-----------------------------------------------|
D|---------------------------|-----------------------------------------------|

Part 7
D|---------------------------------------------------------------------------|
A|---------------------------------------------------------------------------|
F|---------------------------------------------------------------------------|
C|--5---------------8-------7----------------3-----6-------------------------|
G|--5---------------6-------5----------------1-----4-------------------------|
D|--3------------------------------------------------------------------------|
| |
| |
D|---------------------------------------------------------------------------|
A|---------------------------------------------------------------------------|
F|---------------------------------------------------------------------------|
C|--8-7-5---5---------------7-5-4---4--------3-----6-------------------------|
G|--------8---8-6-5-6-------------7---7-5-3--1-----4-------------------------|
D|---------------------------------------------------------------------------|


Part 8
D|---------------------------------------------------------------------------|
A|---------------------------------------------------------------------------|
F|---------------------------------------------------------------------------|
C|--5---------------8-------7---7-7-7--------3-3-3--6-6-6--------------------|
G|--5---5-5-5-------6-------5---5-5-5--------1-1-1--4-4-4--------------------|
D|--3---3-3-3----------------------------------------------------------------|
| |
| |
D|---------------------------------------------------------------------------|
A|---------------------------------------------------------------------------|
F|---------------------------------------------------------------------------|
C|--8-7-5---5---------------7-5-4---4--------3-3-3--6-6-6--------------------|
G|--------8---8-6-5-6-------------7---7-5-3--1-1-1--4-4-4--------------------|
D|---------------------------------------------------------------------------|


Part 9
D|---------------------------------------------------------------------------|
A|---------------------------------------------------------------------------|
F|---------------------------------------------------------------------------|
C|-2-------------5-------------9-------------5-----8-------------------------|
G|-2-2-2-2-2-2-2-3-------------9-9-9-9-9-9-9-5-----8-------------------------|
D|-0-0-0-0-0-0-0---------------7-7-7-7-7-7-7-3-----6-------------------------|
| |
| |
D|---------------------------------------------------------------------------|
A|---------------------------------------------------------------------------|
F|--------3------------------------------------------------------------------|
C|----5-4---5-4--------------------2-3-5-3-2-&9-7-10-9-10-9------------------|
G|&7-------------7--5--7--5-----&6-------------------------------------------|
D|---------------------------7-----------------------------------------------|


D|---------------------------------------------------------------------------|
A|---------------------------------------------------------------------------|
F|---------------------------------------------------------------------------|
C|---3-----------------------------------------------------------------------|
G|-2-3-2---------------------------------------------------------------------|
D|-0-1-0---------------------------------------------------------------------|

Bir Cevap Yazın

E-posta hesabınız yayımlanmayacak.