Amorphis First Doom(Tab) Tabları

Amorphis First Doom(Tab) Şarkısının Tabı

RIFF A                      RIFF B                

|---------------------------|---------------------------|
|---------------------------|---------------------------|
|---------------------------|---------------------------|
|-7----7--7----7----x-x-x-x-|-5----5--5----5----x-x-x-x-|
|-7----7--7----7----x-x-x-x-|-5----5--5----5----x-x-x-x-|
|-5----5--5----5----x-x-x-x-|-3----3--3----3----x-x-x-x-|


RIFF C RIFF D

|---------------------------|---------------------------|
|---------------------------|---------------------------|
|---------------------------|---------------------------|
|----------------8----------|------10-------------------|
|------8----11-----11-8-----|-----------10---11-10-8----|
|-8---------------------11--|-8----------------------11-|


RIFF E

|--------------------|
|--------------------|
|--------------------|
|---------8-6--------|
|---8-6-8-----8-6(~)-|
|-8------------------|
Last time Let last Note ring


RIFF F RIFF G
A5 A5
|------------------------------|--------------------------------|
|------------------------------|--------------------------------|
|------------------------------|--------------------------------|
|------------------------------|------9----10----9-7-9-7--------|
|------7----8----7-5-7-5-------|-------------------------10-9-7-|
|-5----------------------8-7-5-|-5------------------------------|


RIFF H
A5
|--------------------------------|------|
|--------------------------------|------|
|------9----10----9-7-9-7--------|------|
|-------------------------10-9-7-|-7----|
|--------------------------------|-7----|
|-5------------------------------|-5----|


RIFF I
A5 C5 Bb5 G5 E5 G5
|-----------------|---------------------|-----------------|-----------------|
|-----------------|---------------------|-----------------|-----------------|
|-----------------|---------------------|-----------------|-----------------|
|-7-7-7-7-7-7-7-7-|-10-10-10-10-9-9-9-9-|-5-5-5-5-5-5-5-5-|-2-2-2-2-5-5-5-5-|
|-7-7-7-7-7-7-7-7-|-10-10-10-10-9-9-9-9-|-5-5-5-5-5-5-5-5-|-2-2-2-2-5-5-5-5-|
|-5-5-5-5-5-5-5-5-|-8--8--8--8--7-7-7-7-|-3-3-3-3-3-3-3-3-|-0-0-0-0-3-3-3-3-|
SLIGHT P.M.................................................................

????????????? FILL ? TO ? I ????????????
A5 C5 Bb5 G5 E5 G5
Let ring-------|
|---------|-----------|-------|--------|
|---------|-----------|-------|--------|
|---------|-----------|-------|--------|
|-(2&)7---|-10-9------|---7-9-|----7-9-|
|---------|------10---|-7-----|-10-----|
|---------|-----------|-------|--------|
ONLY FIRST TIME


???????????? RIFF ? J ???? OUTRO ????????????????????
Bb5 C5 A5
SLOWLIER FADE OUT
|----------------------------------|----------------|
|----------------------------------|----------------|
|----------------------------------|----------------|
|---6-------6-------6-------6------|-9--------------|
|-----9-6-----9-6-----9-6-----9-6--|-7--------------|
|-6-------6-------8-------5--------|----------------|

Bir Cevap Yazın

E-posta hesabınız yayımlanmayacak.