Black Sabbath War Pigs (tab) Tabları

Black Sabbath War Pigs (tab) Şarkısının Tabı

E----------------------------------
B----------------------------------
G-7&9-----7&9----------------------
D-7&9-----7&9----------------------
A-5&7-----5&7&5~~~~-----11-11h12-11
E-----------------------0--0-----0

E--------------------------------------
B--------------------------------------
G--7&9-----7&9-------------------------
D--7&9-----7&9-------------------------
A--5&7-----5&7&5~~~~-----11-11h12-12&14
E------------------------0--0-----0----

E-----------------------------------
B-----------------------------------
G--7&9-----7&9----------7&9---------
D--7&9-----7&9----------7&9----12-14
A--5&7-----5&7&5~~~-----5&7----12-14
E------------------------------10-12

E-------------------------------------------------------------
B-------------------------------------------------------------
G-------------------------------------------------------------
D----12-14---------12-14---------------------------------12-14
A----12-14---------12-14---------------------------------12-14
E----10-12---------10-12---------------------------------10-12
Generals gathered in their masses

E--------------------------------------------------------------------------------
B--------------------------------------------------------------------------------
G--------------------------------------------------------------------------------
D-----------------------------------12-14-----------------------------------12-14
A-----------------------------------12-14-----------------------------------12-14
E-----------------------------------10-12-----------------------------------10-12
Just like witches at black masses Evil eyes that plot destruction

E---------------------------------------------------------------------------------------
B---------------------------------------------------------------------------------------
G--------------------------------------------------------------------------4p2p0--------
D-----------------------------------12-14----------------------------------------2-12-14
A-----------------------------------12-14------------------------------------------12-14
E-----------------------------------10-12------------------------------------------10-12
Sorcerers of death's construction In the fields the bodies burning

E-------------------------------------------------------------------------------12
B-------------------------------------------------------------------------------12
G-------------------------------------------------------------------------------12
D--------------------------------0h2p0h2p0h2p0-12-14------------------------------
A----------------------------------------------12-14------------------------------
E----------------------------------------------10-12------------------------------
As the war machine keeps turning Death and hatred to mankind

E--------------------------------------------------------------------------------
B--------------------------------------------------------------------------------
G----------------------------------------------------------------------------12~~
D-12-14------------------------------------------------12-14---17-16-15---14-----
A-12-14------------------------------------------------12-14---17-16-15---14-----
E-10-12------------------------------------------------10-12---15-14-13---12-----
Poisoning their brainwashed minds, Oh lord yeah

E-----------------------------------------------------------------------
B-----------------------------------------------------------------------
G-------------------------------------------------------------------12~~
D-12-14---17-16-14---14-----12h14p12h14p12h14-12-14---17-16-15---14-----
A-12-14---17-16-14---14--&14------------------12-14---17-16-15---14-----
E-10-12---15-14-13---12-----------------------10-12---15-14-13---12-----

x4
E----------12&--------------
B----------12&--------------
G----------12&--------------
D---------------------------
A---------------------------
E-0-0-0-0-----0--0-0-0-3^~~
. . . . . . . .

x8
E----------------------------
B----------------------------
G----------------------------
D----------2p0--------2p0----
A----------------------------
E-0-0-0-0------0-0-0------3~
. . . . . . .

x4
E----------12&--------------
B----------12&--------------
G----------12&--------------
D---------------------------
A---------------------------
E-0-0-0-0-----0--0-0-0-3^~~
. . . . . . . .

x8
E---------------------------
B---------------------------
G---------------------------
D----------2p0--------2p0---
A---------------------------
E-0-0-0-0------0-0-0------3~
. . . . . . .

E------------------------------------------------------------------------
B------------------------------------------------------------------------
G------------------------12~~--------------------------------------------
D-12-14---17-16-15---14-------12-14---17-16-14---14-----12h14p12h14p12h14
A-12-14---17-16-15---14-------12-14---17-16-14---14--&14-----------------
E-10-12---15-14-13---12-------10-12---15-14-13---12----------------------

E-------------------------------------------------------
B-------------------------------------------------------
G------------------------12~~---------------------------
D-12-14---17-16-15---14--------12-14---17-16-14---14----
A-12-14---17-16-15---14--------12-14---17-16-14---14----
E-10-12---15-14-13---12--------10-12---15-14-13---12--3~

E------------------------------------------------------------------------------------
B------------------------------------------------------------------------------------
G------------------------------------------------------------------------------------
D------------------------------------------------------------------------------------
A-11h12---12p11---11&7---7&5---5&7----7p5---5h7---7&11---11&12---12p11---11h12--12&14
E-0-------0-------0------0-----0------0-----0-----0------0-------0-------0-------0---

E---------------------------------------------------12------12--------12-----------
B-------------------------------------------------12------12--15^-15^---14-12----12
G--------------------------12--------------12--14^-----14^--------------------14^--
D-------12h14-14-----12h14----------12h14------------------------------------------
A-12h14---------12h14---------12h14------------------------------------------------
E----------------------------------------------------------------------------------

E--------------------------------------------12----15^-15^-15^-15^-12---12-12---------
B-15p12--15p12----15p12----15p12---12---15^--------------------------15-------15-15p12
G-------------14--------14------14----------------------------------------------------
D------------------------------------------------------------------------------------
A------------------------------------------------------------------------------------
E------------------------------------------------------------------------------------

E-----------------------------------------------------------------------------------
B----12-15p12------------------------7---7--7---7-----------------------------------
G-14-----------14-14p12--12----------9^-9^-9^-9^--9^-7--7h9~----7h9~----7h9~-9---7-9
D--------------------------14--14--14------------------9----7h9-----7h9-------------
A-----------------------------------------------------------------------------------
E-----------------------------------------------------------------------------------

x2
E-----------------------------------------------------------------
B-----------------------------------------------------------------
G-11t9p7h9p7h9-11t9p7h9p7h9-11t9p7h9p7h9-11t9p7h9p7h9-11t9p7h9p7h9
D-----------------------------------------------------------------
A-----------------------------------------------------------------
E-----------------------------------------------------------------

E-----------------------------------------------------------------------------------
B--------7--7---7--7----------------------------------------------------------------
G-11p9-9^-9^-9^-9^-9^--9p7-7h9~-----------------------------------------------------
D------------------------------------------------------------------6^-6^-6^-6^-6^-6^
A------------------------------11h12---12p11---11&7---7&5---5&7---------------------
E------------------------------0-------0-------0------0-----0-----------------------

E------
B------
G------
D-6^-6^
A------
E------

E------------------------------------------------------------------
B------------------------------------------------------------------
G------------------------------------------------------------------
D----12-14---------12-14--------------------------------------12-14
A----12-14---------12-14--------------------------------------12-14
E----10-12---------10-12--------------------------------------10-12
Now in darkness world stops turning

E-------------------------------------------------------------------------------
B-------------------------------------------------------------------------------
G-------------------------------------------------------------------------------
D----------------------------------12-14-----------------------------------12-14
A----------------------------------12-14-----------------------------------12-14
E----------------------------------10-12-----------------------------------10-12
As the war machine keeps turning No more war pigs have the power

E---------------------------------------------------------------------------
B---------------------------------------------------------------------------
G---------------------------------------------------------------4p2p0-------
D---------------------------------12-14------------------------------2-12-14
A---------------------------------12-14--------------------------------12-14
E---------------------------------10-12--------------------------------10-12
Hand of god has struck the hour Day of judgment God is calling
E----------------------------------------------------------------------------------------12
B----------------------------------------------------------------------------------------12
G----------------------------------------------------------------------------------------12
D----------------------------------------0h2p0h2p0h2p0-12-14-------------------------------
A------------------------------------------------------12-14-------------------------------
E------------------------------------------------------10-12-------------------------------
On their knees, the war pigs crawling Begging mercy for their sins

E--------------------------------------------------------------------------------
B--------------------------------------------------------------------------------
G----------------------------------------------------------------------------12~~
D-12-14------------------------------------------------12-14---17-16-15---14-----
A-12-14------------------------------------------------12-14---17-16-15---14-----
E-10-12------------------------------------------------10-12---15-14-13---12-----
Satan laughing spreads his wings, oh lord yeah
E-----------------------------------------------------------------------
B-----------------------------------------------------------------------
G-------------------------------------------------------------------12~~
D-12-14---17-16-14---14-----12h14p12h14p12h14-12-14---17-16-15---14-----
A-12-14---17-16-14---14--&14------------------12-14---17-16-15---14-----
E-10-12---15-14-13---12-----------------------10-12---15-14-13---12-----
E----------------------------
B----------------------------
G----------------------------
D-12-14---17-16-15---14------
A-12-14---17-16-15---14------
E-10-12---15-14-13---12--3^~
x2
E--------------------------------------------------------------------------------------
B--------------------------------------------------------------------------------------
G-------7--------7---7--------7------7---7--9-----7------------7-------7---7-9-12-9----
D---9-------9------9-----9-------9-----9----9--9--7--------9-------9-----9---9-12-9----
A-7---7---7---7--------7---7---7---7--------7--9--5------7---7---7---7-------7-10-7----
E----------------------------------------------7---------------------------------------

x4
E---------------------
B---------------------
G-------7--------7---7
D---9-------9------9--
A-7---7---7---7-------
E---------------------

x2
E----------------------
B----------------------
G-------5---------5---5
D---7-------7------7---
A-5---5---5---5--------
E----------------------

x2
E----------------------
B----------------------
G--------3--------3---3
D---5-------5------5---
A-3---3---3---3--------
E----------------------
x2
E--------------|------------------------------------------|
B--------------|------------------------------------------|
G--------------|------------------------------------------|
D-9---10-10-9--|-----4-5-4h5-4---4-----------4-5-7-7---9-9|
A-9---10-10-9--|5h7-----------------5--5-5h7--------------|
E-7----8---8-7-|0----------------------7---0--------------|

E------------------------------------------------------------------------------
B------------------------------------------------------------------------------
G-4&7-7h9-9--7h9-9^-9^-9^-9-7h9--7--7--9-11t9p7h9p7h9-11t9p7h9p7h9-11t9p7h9p7h9
D----------------------------------9-------------------------------------------
A------------------------------------------------------------------------------
E------------------------------------------------------------------------------

E--------------------------------------------------------------------------
B-----------------------------------------------------------------7---7--7-
G-11t9p7h9p7h9-11t9p7h9p7h9-11t9p7h9p7h9-11t9p7h9p7h9-11t9p7h9p7h9-9^-9^-9^
D--------------------------------------------------------------------------
A--------------------------------------------------------------------------
E--------------------------------------------------------------------------

E-------------------------------------------------------------------------
B-7-----------------------------------------------------------------------
G-9^-9-7---7h9-7p9~-7h9~~----------7h9~~---------7h9~~-----7h9-----7h9-7-9
D----------9---------------7h9~~---------7h9~~---------7h9-----7h9--------
A-------------------------------------------------------------------------
E-------------------------------------------------------------------------

E------------------------------------------------------------------------------------
B-------------------------------------------------------------------------------------
G-11t9p7h9p7h9------------------------------------------------------------------------
D------------------9p7-7--------------------------------------------------------------
A--------------------------10-10-9-7-9--10-9-7-9-10p9p7--9--10p9p7--9--10p9p7--9--9-10
E-------------------------------------------------------------------------------------

E--------------
B--------------
G--------------
D-7------------
A---9h10p9p7--7
E--------------

E-------------------------------------------
B-------------------------------------------
G-------------------------------------------
D------4-5-4h5-4---4-----------4-5-7-7---9-9
A-5h7-----------------5--5-5h7--------------
E-0----------------------7---0--------------

E------------------------------------------
B------------------------------------------
G------------------------------------------
D------4-5-4h5-4---4-----------4-5-7-7---9&
A-5h7-----------------5--5-5h7-------------
E-0----------------------7---0-------------

x3 then get crazy fast
E---------------------
B---------------------
G-------7--------7----
D---9-------9------9--
A-7---7---7---7-------
E---------------------

Bir Cevap Yazın

E-posta hesabınız yayımlanmayacak.