Blind Guardian The Bard Song(Tab) Tabları

Blind Guardian The Bard Song(Tab) Şarkısının Tabı

E--0----------------------------------|-----------------|----------------
B-----3--1--0--0--1--0-----0----------|-1--3--1--0--1---|----------------
G-----------------------0-----2--0----|-----------------|--2-------------
D-------------------------------------|-----------------|----------------
A--0----------------------------------|-0---------------|--0-------------
E--------------3-----------0----------|-----------------|----------------

Lead Guitar

E--8--10--8--10--7-----7-------------------7--8--7-----8--10--8--10--7----
B-------------------------10--8-----8--10---------------------------------
G-------------------------------------------------------------------------
D-------------------------------------------------------------------------
A-------------------------------------------------------------------------
E-------------------------------------------------------------------------

- -
E--7-------------------7-8-7----------------------------------------------
B-----10--8-----8--10--------10-------------------------------------------
G-------------------------------------------------------------------------
D-------------------------------------------------------------------------
A-------------------------------------------------------------------------
E-------------------------------------------------------------------------


Start Singing

E---0---------------------------------
B--------3---1---0----0---1---0---1---
G-------------------------------------
D-------------------------------------
A---0-----------------------------0---
E----------------3----0---------------

Now you' re ..............

Bir Cevap Yazın

E-posta hesabınız yayımlanmayacak.