Blur Resigned Akorları

Blur Resigned Şarkısının Akorları

F                                     C
|----------------------------------------------------------------------------
|-----------------10---------------------------------------------------------
|---------10----------10------10----------------------9----------------------
|-----10------10----------10-----------------10----------10------------------
|---8------------------------------------10------10-----------10-------------
|-------------------------------------8---------------------------8----------


Eb add7(?) A#
|----------------10--------------------------------6-------------------------
|---------------------------8-------------------------6----------------------
|---------8-----------8-----------------------------------7------------------
|------8------8----------8-----------------8-----------------8-------------
|---6-----------------------------------8------8-----------------------------
|------------------------------------6---------------------------------------


Dm Ab (add2)
|---------------5---------------------------4--6-----------------------------
|------------------6---------------------4--------4--------------------------
|---------7----------7-------------------------------------------------------
|-------7---7-----------7--------------6------------6------------------------
|----5-------------------------------------------------6---------------------
|-----------------------------------4----------------------------------------


C Eb
|---------------------------------------------------------------------r
|----------------------------------------------------8----8-----------e
|----------------------------------------------------8----8-----------p
|-----------10------------10------------10-----------8----8-----------e
|-------10------10----10------10-----10-----10-------6----6-----------a
|----8--------------8-------------8-----------------------------------t


Bir Cevap Yazın

E-posta hesabınız yayımlanmayacak.