Children of Bodom Angels Dont Kill (Bass tab) Akorları

Children of Bodom Angels Dont Kill (Bass tab) Şarkısının Akorları

Tune Down

D#||------------------|------------------|------------------|------------------|
A#||------------------|------------------|------------------|------------------|
F ||------------------|------------------|------------------|------------------|
C ||------------------|------------------|------------------|------------------|



|--------------------|-------------------||------------------------|
|*-------------------|------------------*||----------2-2-0--2-2-0--|
|*-------------------|------------------*||------------------------|
|---0----------------|-------------------||------------------------|



--------------------------|------------------------|--------------------------|
--------------------------|------------------------|--------------------------|
--------------------------|------------------------|--------------------------|
--0--0--0--0--0--0--0--0--|--0--0--0--0--0----1----|--0--0--0--0--0--0--0--0--|



------------------------|--------------------------|------------------------|
------------------------|--------------------------|------------------------|
-------------------1----|--------------------------|------------------------|
--0--0--0--0--0---------|--0--0--0--0--0--0--0--0--|--0--0--0--0--0----1----|



--------------------------|------------------------|--------------------|
--------------------------|------------------------|-----------0--------|
--------------------------|-------------------1----|--3-----------------|
--0--0--0--0--0--0--0--0--|--0--0--0--0--0---------|--------------------|



-------------------------|--------------------|-------------------------|
-------------------------|-----------0--------|-------------------------|
-------------------------|--3-----------------|-------------------------|
--0-0-----0-0---0-0---0--|--------------------|--0-0-----0-0---0-0---0--|



--------------------|-------------------------|--------------------|
-----------0--------|-------------------------|-----------0--------|
--3-----------------|-------------------------|--3-----------------|
--------------------|--0-0-----0-0---0-0---0--|--------------------|



------------------------|---------------------|---------------------|
-------------------0----|---------0-----------|---------------------|
--2--2--2--2--2---------|----------------3----|---------0-3--3------|
------------------------|--0------------------|---------------------|



---------------------|-------------------|---------------------|
---------0-----------|-------------------|---------0-----------|
--3-------------0----|--------2----------|----------------3----|
---------------------|-------------------|--0------------------|



---------------------|---------------------|-------------------|
---------------------|---------0-----------|-------------------|
---------0-3--3------|--3-------------0----|--------2----------|
---------------------|---------------------|-------------------|



--------------------|-------------------------|--------------------|
-----------0--------|-------------------------|-----------0--------|
--3-----------------|-------------------------|--3-----------------|
--------------------|--0-0-----0-0---0-0---0--|--------------------|



-------------------------|--------------------|-------------------------|
-------------------------|-----------0--------|-------------------------|
-------------------------|--3-----------------|-------------------------|
--0-0-----0-0---0-0---0--|--------------------|--0-0-----0-0---0-0---0--|



--------------------|-----------------------|--------------------------|
-----------0--------|-------------------0---|--------------------------|
--3-----------------|--2-2-----2-2----------|--------------------------|
--------------------|-----------------------|--0--0--0--0--0--0--0--0--|



------------------------|--------------------------|------------------------|
------------------------|--------------------------|------------------------|
------------------------|--------------------------|-------------------1----|
--0--0--0--0--0----1----|--0--0--0--0--0--0--0--0--|--0--0--0--0--0---------|



--------------------------|------------------------|--------------------------|
--------------------------|------------------------|--------------------------|
--------------------------|------------------------|--------------------------|
--0--0--0--0--0--0--0--0--|--0--0--0--0--0----1----|--0--0--0--0--0--0--0--0--|



------------------------|---------------------|-----------------------|
------------------------|----------------0----|------------------0----|
-------------------1----|--0--------2---------|-----------------------|
--0--0--0--0--0---------|---------------------|--0--0------0-0--------|



---------------------|----------------------------------|---------------------|
----------------0----|----------0-0-0-0---------0-0-0-0-|----------------0----|
--0--------2---------|----------------------------------|--0--------2---------|
---------------------|--0-0-0-0---------0-0-0-0---------|---------------------|



-----------------------|---------------------|------------------------------|
------------------0----|----------------0----|----------0-0-0---------0-0-0-|
-----------------------|--0--------2---------|------------------------------|
--0--0------0-0--------|---------------------|---0-0-0---------0-0-0--------|



--------------------|-------------------------|--------------------|
-----------0--------|-------------------------|-----------0--------|
--3-----------------|-------------------------|--3-----------------|
--------------------|--0-0-----0-0---0-0---0--|--------------------|



-------------------------|--------------------|-------------------------|
-------------------------|-----------0--------|-------------------------|
-------------------------|--3-----------------|-------------------------|
--0-0-----0-0---0-0---0--|--------------------|--0-0-----0-0---0-0---0--|



--------------------|--------------------------|-------------------|
-----------0--------|--------------------------|-------------------|
--3-----------------|--2--2--2--2--2--2--2--2--|-------------------|
--------------------|--------------------------|--0----------------|



--------------------|-------------------|--------------------|
--------------------|-------------------|--------------------|
--------------------|-------------------|---------------2----|
--0--0--------------|--0----------------|----------3---------|



-------------------|------------------|----------------------|
-------------------|------------------|-----------------1----|
-------------------|------------------|-------4--------------|
--0----------------|------------------|--1---------4---------|



-----------------------|----------------------|-----------------------|
--3--1-----------------|-----------------1----|--3--1-----------------|
--------4---------3----|-------4--------------|--------4---------3----|
-------------4---------|--1---------4---------|-------------4---------|



-------------------|-------------------|--------------------------|
-------------------|-------------------|--------------------------|
--2----------------|-------------------|-----------3--------------|
-------------------|--3----------------|--0--0--0-----0--0--0--0--|



--------------------------|--------------------------|
-----------0--------------|--------------------------|
--------------------------|-----------3--------------|
--0--0--0-----0--0--0--0--|--0--0--0-----0--0--0--0--|



----------------------------|--------------------------|
---------------------0---0--|--------------------------|
--------0-------------------|-----------3--------------|
--0-0-0-----3--0-0-0--------|--0--0--0-----0--0--0--0--|



--------------------------|--------------------------|
-----------0--------------|--------------------------|
--------------------------|-----------3--------------|
--0--0--0-----0--0--0--0--|--0--0--0-----0--0--0--0--|



----------------------------|----------|------------------|------------------|
---------------------0---0--|----------|------------------|------------------|
--------0-------------------|----------|------------------|------------------|
--0-0-0-----3--0-0-0--------|----------|------------------|------------------|



---------------------|----------------------|---------------------|
---------0-----------|----------------0-----|--2------0-----------|
--3-------------0----|----------2--2-----2--|----------------3----|
---------------------|----------------------|---------------------|



---------------------|---------------------|-------------------|
---------------------|---------0-----------|-------------------|
-----------3--3------|--3-------------0----|--------2----------|
---------3-----------|---------------------|-------------------|



---------------------|---------------------|---------------------|
--2------0-----------|---------------------|---------0-----------|
----------------3----|-----------3--3------|--3-------------0----|
---------------------|---------3-----------|---------------------|



-------------------|------------------|--------------------------|
-------------------|------------------|--------------------------|
--------2----------|------------------|--------------------------|
-------------------|------------------|--0--0--0--0--0--0--0--0--|



------------------------|--------------------------|------------------------|
------------------------|--------------------------|------------------------|
------------------------|--------------------------|-------------------1----|
--0--0--0--0--0----1----|--0--0--0--0--0--0--0--0--|--0--0--0--0--0---------|



--------------------------|------------------------|--------------------------|
--------------------------|------------------------|--------------------------|
--------------------------|------------------------|--------------------------|
--0--0--0--0--0--0--0--0--|--0--0--0--0--0----1----|--0--0--0--0--0--0--0--0--|



------------------------|--------------------------|------------------------|
------------------------|--------------------------|------------------------|
-------------------1----|--------------------------|------------------------|
--0--0--0--0--0---------|--0--0--0--0--0--0--0--0--|--0--0--0--0--0----1----|



--------------------------|------------------------|--------------------------|
--------------------------|------------------------|--------------------------|
--------------------------|-------------------1----|--------------------------|
--0--0--0--0--0--0--0--0--|--0--0--0--0--0---------|--0--0--0--0--0--0--0--0--|



------------------------|--------------------------|
------------------------|--------------------------|
------------------------|--------------------------|
--0--0--0--0--0----1----|--0--0--0--0--0--0--0--0--|



-------------------------------|-------------------|------------------|
-------------------------------|-------------------|------------------|
--------------------------1----|-------------------|------------------|
--0-0-0-0---0-0-0-0--0---------|--0----------------|------------------|



------------------||
------------------||
------------------||
------------------||

Bir Cevap Yazın

E-posta hesabınız yayımlanmayacak.