Chris Cornell Flutter Girl Akorları

Chris Cornell Flutter Girl Şarkısının Akorları

INTRO: E7

VERSE:
E E7 E
I'm drinking dust
Am E E7 E
With eyes of rust
E Am&C C#m
Tonight my tears might stain your wings
F#7&A#
So flutter home
A E&G# C&G A* E E7 E
'Cause you're better off alone than with me
Am E E7 E
So hide your face
Am E E7 E
And tie your lace
E Am&C C#m
And butterflies across your cheek
F#7&A#
Forget how soon
A E&G# A
You'll become a fool for words when I speak


CHORUS:
Em Em&D
Flutter girl
C Gm&Bb
You don't want to know what I've lived
Abmaj G
You don't want to take what I give
Eb A7 Em Em&D
'Cause I give nothing for free
C Gm&Bb
You don't want to know what I've lived
Abmaj G
You don't want to take what I give
Eb F G G
'Cause I give nothing for free


SOLO:
|Em |C#mo7 C | x 3
|Eb |Ab |


Part C:
Eb D7 Ab G7 Eb D7
I'll tear your wings as I melt in your smile as I run all your
A7
colors away


PROGRESSION:
Intro
Verse 1
Verse 2
Chorus
Intro
Verse 3
Chorus
Solo
Part C
Chorus
Intro


CHORDS:
E E7 Am Am&C C#m F#7&A# A E&G# C&G A*
e|0------0------0------0------4------0------5------4------0------0-----------|
B|0------0------1------1------5------2------5------5------1------2-----------|
G|1------1------2------2------6------3------6------4------0------2-----------|
D|2------0------2------2------6------2------7------6------2------2-----------|
A|2------2------0------3------4------1------7------7------3------0-----------|
E|0------0----------------------------------5------4------3------------------|

Em Em&D C Gm&Bb Abmaj G Eb A7 F
e|3------3------3------3------3------3------6------5------1------------------|
B|5------5------5------3------4------3------8------5------1------------------|
G|4------4------5------0------5------4------8------6------2------------------|
D|2------0------5------0------5------5------8------5------3------------------|
A|2-------------3------1------x------5------6------7------3------------------|
E|0---------------------------4------3-------------5------1------------------|
bar thumb

C#mo7 D7 Ab G7
e|3------5------4------3-----------------------------------------------------|
B|5------7------4------3-----------------------------------------------------|
G|3------5------5------4-----------------------------------------------------|
D|5------7------6------3-----------------------------------------------------|
A|4------5------6------5-----------------------------------------------------|
E|--------------4------3-----------------------------------------------------|

Bir Cevap Yazın

E-posta hesabınız yayımlanmayacak.