Demir Demirkan Belki (İntro) (Tab) Tabları

Demir Demirkan Belki (İntro) (Tab) Şarkısının Tabı

İntro :

|------------|-------------|-------------|-------------|
|--------1-0-|------0----1-|---------1-0-|------0----1-|
|------------|-2-----------|--0----------|-2-----------|
|------2-----|-------------|-------2-----|-------------|
|------------|-------------|-------------|-------------|
|------------|-------------|-------------|-------------|

Em F G Am
|------------|-------------|-------------|-------------|
|--------1-0-|--------1-0--|--------1-0--|-------------|
|-0----------|-2-----------|-0-----------|-2-----------|
|------2-----|------0------|------2------|-------------|
|------------|-------------|-------------|-------------|
|------------|-------------|-------------|-------------|

Bir Cevap Yazın

E-posta hesabınız yayımlanmayacak.