Iron Maiden Be Quick Or Be Death (tab) Tabları

Iron Maiden Be Quick Or Be Death (tab) Şarkısının Tabı

Intro
x4
e:------------------------------|------------------------------|
B:------------------------------|------------------------------|
G:------------------------------|------------------------------|
D:-----5-0-0-0-1-0-3-0-1-0------|-----5-0-0-0-1-0-3-0-1-0------|
A:-------------------------5~-5-|-------------------------3~-3-|
E:-3----------------------------|-3----------------------------|


"Covered in sinners...
x2
e:--------------------------|--------------------------|
B:--------------------------|--------------------------|
G:--------------------------|--------------------------|
D:--------------------7--8--|--------------3--5--8--7--|
A:-5X5X5-5X5X5-5X5X5--5--6--|-5X5X5-5X5X5--1--3--6--5--|
E:-3X3X3-3X3X3-3X3X3--------|-3X3X3-3X3X3--------------|


"You got to ...
x2
e:-------------------------------|-------------------------------|
B:-------------------------------|-------------------------------|
G:-------------------------------|-------------------------------|
D:--5-5-5-5--5-5--3--3-3---------|--5-5-5-5--5-5--3--3-3--8--7-8-|
A:--3-3-3-3--3-3--1--1-1--3--3-3-|--3-3-3-3--3-3--1--1-1--6--5-6-|
E:------------------------1--1-1-|-------------------------------|

=20
"Be quick.."
x3
e:-----------------------------------------|
B:-----------------------------------------|
G:-----------------------------------------|
D:---5-7-5-0---3-5-3-----1-3-1-----1-1p0---|
A:-------------------5---------3---------1-|
E:-3---------3---------3---------3---------|


x3
"see, what's....
e:-----------------------------------------|-----------------------------=
-----|
B:-----------------------------------------|-----------------------------=
-----|
G:-----------------------------------------|-----------------------------=
-----|
D:---5-7-5-0---3-5-3-----1-3-1-----1-1p0---|-----------------------------=
-----|
A:-------------------5---------3---------1-|-3----------------5----------=
-----|
E:-3---------3---------3---------3---------|-1----------------3----------=
-----|



"I bet you..."
e:-------------------------------------|--------------------------------|=

B:-------------------------------------|--------------------------------|=

G:-------------------------------------|--------------------------------|=

D:--3----5----3--------3----5----3---7-|------------------------8--10---|=

A:--1-3--3-5--1-3-5----1-3--3-5--1-3-5-|------------------------6---8---|=

E:----1----3----1-3------1----3----1---|--------------------------------|=




x4
e:------------------------------|------------------------------|
B:------------------------------|------------------------------|
G:------------------------------|------------------------------|
D:-----5-0-0-0-1-0-3-0-1-0------|-----5-0-0-0-1-0-3-0-1-0------|
A:-------------------------5~-5-|-------------------------3~-3-|
E:-3----------------------------|-3----------------------------|

"The serpent..."
x2
e:--------------------------|--------------------------|
B:--------------------------|--------------------------|
G:--------------------------|--------------------------|
D:--------------------7--8--|--------------3--5--8--7--|
A:-5X5X5-5X5X5-5X5X5--5--6--|-5X5X5-5X5X5--1--3--6--5--|
E:-3X3X3-3X3X3-3X3X3--------|-3X3X3-3X3X3--------------|


"You got to watch them..."
x2
e:-------------------------------|-------------------------------|
B:-------------------------------|-------------------------------|
G:-------------------------------|-------------------------------|
D:--5-5-5-5--5-5--3--3-3---------|--5-5-5-5--5-5--3--3-3--8--7-8-|
A:--3-3-3-3--3-3--1--1-1--3--3-3-|--3-3-3-3--3-3--1--1-1--6--5-6-|
E:------------------------1--1-1-|-------------------------------|


"Be quick...
x3
e:-----------------------------------------|
B:-----------------------------------------|
G:-----------------------------------------|
D:---5-7-5-0---3-5-3-----1-3-1-----1-1p0---|
A:-------------------5---------3---------1-|
E:-3---------3---------3---------3---------|




Rhytm for solo 1:
x2
e:----------------------------------------------------------|
B:----------------------------------------------------------|
G:----------------------------------------------------------|
D:--5--3-5--3-5-3--5--3-5--8-8--5--3-5--3-5-3--5--3-5--3----|
A:--3--1-3--1-3-1--3--1-3--6-6--3--1-3--1-3-1--3--1-3--1-6--|
E:-------------------------------------------------------4--|


Rhytm for solo 2:
x2
e:----------------------------------------------------------|
B:----------------------------------------------------------|
G:----------------------------------------------------------|
D:--7--5-7--5-7-5--7--5-7-1010--7--5-7--5-7-5--7--5-7--5-3--|
A:--5--3-5--3-5-3--5--3-5--8-8--5--3-5--3-5-3--5--3-5--3-1--|
E:----------------------------------------------------------|


"you got to..."
x2
e:-------------------------------|-------------------------------|
B:-------------------------------|-------------------------------|
G:-------------------------------|-------------------------------|
D:--5-5-5-5--5-5--3--3-3---------|--5-5-5-5--5-5--3--3-3--8--7-8-|
A:--3-3-3-3--3-3--1--1-1--3--3-3-|--3-3-3-3--3-3--1--1-1--6--5-6-|
E:------------------------1--1-1-|-------------------------------|


"Be quick...
x3
e:-----------------------------------------|
B:-----------------------------------------|
G:-----------------------------------------|
D:---5-7-5-0---3-5-3-----1-3-1-----1-1p0---|
A:-------------------5---------3---------1-|
E:-3---------3---------3---------3---------|

"be quick"....

e:---------|
B:---------|
G:---------|
D:--5------|
A:--5------|
E:--3------|

Bir Cevap Yazın

E-posta hesabınız yayımlanmayacak.