İzel Aşk Hakları Akorları

İzel Aşk Hakları Şarkısının Akorları

intro;
E--2-------2-------2----------------2-------2-------2------------
B------2-------2-------2---3-5-3--------2-------2-------2--------
G----4---2---4---2---4---2------------4---2---4---2---4---2-2-4--
D----------------------------------------------------------------
A----------------------------------------------------------------
E----------------------------------------------------------------


Bm F#m Bm F#m G F#m Bm
E------------------------------------------------------------------
B---------2-----------------2------------2-3-5-3--2-3-2-------2----
G-----2-4---4--2-4-2------4---4-2-4-2--4----------------4-2-4---4--
D-4-5----------------5-4-------------------------------------------
A------------------------------------------------------------------
E------------------------------------------------------------------

( Bm
( meğer ne zor şeymiş
( G
( sensin yaşamak
2x ( Em F#m
( düzelirmi acaba
( Bm
( bu durum

Em A Bm F#m )
her istediğinde bitiremezsin )
Em A )
benimde bazı aşk ) X2
Bm )
haklarım var )

solo;
Bm F#m Bm F#m G F#m Bm X2
E------------------------------------------------------------------
B---------2-----------------2------------2-3-5-3--2-3-2-------2----
G-----2-4---4--2-4-2------4---4-2-4-2--4----------------4-2-4---4--
D-4-5----------------5-4-------------------------------------------
A------------------------------------------------------------------
E------------------------------------------------------------------

( Bm
( demek karar verdin
( G
( ikimiz adına
2X ( Em F#m
( dönüşün yok galiba
( Bm
( bu defa

Em A Bm F#m )
her istediğinde bitiremezsin )
Em A )
benimde bazı aşk ) X2
Bm )
haklarım var )

Em A Bm (F#m)
benimde bazı aşk haklarım var
Em A Bm
benimde bazı aşk haklarım var

Bir Cevap Yazın

E-posta hesabınız yayımlanmayacak.