Kargo Aşk Olunca Tab Akorları

Kargo Aşk Olunca Tab Şarkısının Akorları

intro:
Dm C F Am
e|-13-12----15~--13-12----13-12----------
b|-------15------------15-------15-13~---
g|---------------------------------------
d|---------------------------------------
a|---------------------------------------
e|---------------------------------------
Dm C F Am
e|-13-12----15~--13-12----13-12----17~---
b|-------15------------15-------15-------
g|---------------------------------------
d|---------------------------------------
a|---------------------------------------
e|---------------------------------------
Dm C F Am
e|-13-12----15~--13-12----13-12----------
b|-------15------------15-------15-13~---
g|---------------------------------------
d|---------------------------------------
a|---------------------------------------
e|---------------------------------------

e|-13-12----15~--13-12----13-12----12~---
b|-------15------------15-------15-------
g|---------------------------------------
d|---------------------------------------
a|---------------------------------------
e|---------------------------------------

Dm C F Am
Yepyeni bir gün sensiz
Dm C F Am
Yepyeni bir yasam mi bu?
Dm C F Am
Yepyeni bir ben sensiz
Dm C F Am
Yepyeni bir umut mu bu?

Geçiþ1: G F
uuuu... oooo...

Dm C F Am
Yepyeni bir söz sensiz
Dm C F Am
Yepyeni bir yalan mi bu?
Dm C F Am
Yepyeni bir yol sensiz
Dm C F Am
Yepyeni bir kader mi bu?

Geçiş2: F Am G
uuuu... aaaa... haaa...
F C F
uuuu... aaaa... uuuu... huuu....

Nakarat
Dm F
Sen sen olunca
C
Ben ben olunca
Am
Ask olunca

Dm F
Sen sen olunca
C
Ben ben olunca
F G
huuu... ooo...


Ve solo:

e|-6~-5~--------6~--5~-------------------
b|--------3--6----------3--6--8~--5~-----
g|---------------------------------------
d|---------------------------------------
a|---------------------------------------
e|---------------------------------------

e|-------0-1-3--6~-5~--5--8s17~---15~----
b|-----3---------------------------------
g|-2-3-----------------------------------
d|---------------------------------------
a|---------------------------------------
e|---------------------------------------

e|-------13-12----15~~~~-----------------
b|----13-------13------------------------
g|-12------------------------------------
d|---------------------------------------
a|---------------------------------------
e|---------------------------------------

Bir Cevap Yazın

E-posta hesabınız yayımlanmayacak.