Megadeth 1000 Times Goodbye Akorları

Megadeth 1000 Times Goodbye Şarkısının Akorları

Intro (2x by itself)
e|--------------------------------------------------------------------|
B|--------------------------------------------------------------------|
G|--------------------------------------------------------------------|
D|--------------------------------------------------------------------|
A|--------------------------------------------------------------------|
E|-0-0-0-0-1-1-1-1-0-0-0-0-4-3-2-1-0-0-0-0-1-1-1-1-0-0-0-0-4-3-2-1----|
. . . . . . . . . . . . . . . . . . . . . . . . . . . . . . . .

1x more w&drums
e|--------------------------------------------------------------------|
B|--------------------------------------------------------------------|
G|--------------------------------------------------------------------|
D|--------------------------------------------------------------------|
A|--------------------------------------------------------------------|
E|-0-0-0-0-1-1-1-1-0-0-0-0-4-3-2-1-0-0-0-0-1-1-1-1-0-0-0-0-4-3-2-1----|
. . . . . . . . . . . . . . . . . . . . . . . . . . . . . . . .

then a twist
e|--------------------------------------------------------------------|
B|--------------------------------------------------------------------|
G|--------------------------------------------------------------------|
D|---------------------------------------------------------5----------|
A|--------------------------------------------------------------------|
E|-0-0-0-0-1-1-1-1-0-0-0-0-4-3-2-1-0-0-0-0-1-1-1-1-0-0-5-6---6-5-3----|
. . . . . . . . . . . . . . . . . . . . . . . . . .

Second Intro Riff (3x)
e|--------------------------------------------------------------------|
B|--------------------------------------------------------------------|
G|--------------------------------------------------------------------|
D|--------------------------------------------------------------------|
A|--------------------------------------------------------------------|
E|-0-0-0-0-1-1-1-1-0-0-0-0-4-3-2-1-0-0-0-0-1-1-1-1-0-0-0-0-4-3-2-1----|
| . . . . . . . . . . . . . . . . . . . . . . . . . . . . . . . . |
| |
e|--------------------------------------------------------------------|
B|--------------------------------------------------------------------|
G|--------------------------------------------------------------------|
D|---------------------------------------------------------5----------|
A|--------------------------------------------------------------------|
E|-0-0-0-0-1-1-1-1-0-0-0-0-4-3-2-1-0-0-0-0-1-1-1-1-0-0-5-6---6-5-3----|
. . . . . . . . . . . . . . . . . . . . . . . . . .

Verse Riff (4x)
e|--------------------------------------------------------------------|
B|--------------------------------------------------------------------|
G|--------------------------------------------------------------------|
D|---------------------------------------------------------5----------|
A|-----5h7-----5h7---------------------5h7-----8p7--------------------|
E|-0-0-----0-0-----0-0-0-0-0-0-0-0-0-0-----0-0-----0-0-5-6---6-5-3----|
. . . . . . . . . . . . . . . . . .

Second Verse Riff
e|--------------------------------------------------------------------|
B|--------------------------------------------------------------------|
G|--------------------------------------------------------------------|
D|-2-----4-------5-------------2-----4-------5------------------------|
A|-0-----2-------3-----2---3-4-0-----2-------3-----2---3-4------------|
E|---2-2---2-2-2---2-2-0---1-2---2-2---2-2-2---2-2-0---1-2------------|
. . . . . . . . . . . . . .

Third (?) Verse Riff
e|--------------------------------------------------------------------|
B|--------------------------------------------------------------------|
G|--------------------------------------------------------------------|
D|--------------------------------------------------------------------|
A|---------7~------------5---------------7~------------5--------------|
E|-0-0-0-0------5--5-6-7---7-6-5-0-0-0-0------5--5-6-7---7-6-5--------|
. . . . ' . . . . . . . . . . . ' . . . . . . .

Bir Cevap Yazın

E-posta hesabınız yayımlanmayacak.