MFÖ Bu Sabah Yağmur Var İstanbulda (Tab) Tabları

MFÖ Bu Sabah Yağmur Var İstanbulda (Tab) Şarkısının Tabı

Intro

e---10--10-------10--10-------10--10------5--5----|
B-10--10--10----9---9---9----8---8---8---7--7--7--|
G-------------------------------------------------|
D-------------------------------------------------|
A-------------------------------------------------|
E-------------------------------------------------|


e---5--5------5--5-------------|
B--6--6--6---6--6--6-----------|
G------------------------------|
D------------------------------|
A------------------------------|
E------------------------------|


Dm Gm
Bu sabah yagmur var Istanbulda

A Dm
Gozlerim dolu dolu oluyor bilinmez niye

Gm
Anne sozu dinler gibi masum

A7
Agladim bu sabah

D Bm7 Em A D Em A
Gunler dayanilmaz oldu, senden uzak olunca

D Bm7 Em A D
Martilar mahsun oldu, onlar bile agladilar

G Bm7&F# Em A Dm
Sarkilarda dusunmek seni bana getirmezki

Dm&C# Dm&C Dm&B

Gm A
Seni bana getirmez ki

Dm Gm
Bu sabah yagmur var Istanbulda

A Dm
Gozlerim dolu dolu oluyor bilinmez niye

Gm
Anne sozu dinler gibi masum

A7
Agladim bu sabah

D Bm7 Em A D Em A
Gunler dayanilmaz oldu, senden uzak olunca

D Bm7 Em A D
Martilar mahsun oldu, onlar bile agladilar

G Bm7&F# Em A Dm
Sarkilarda dusunmek seni bana getirmezki

Dm&C# Dm&C Dm&B


Gm A
Seni bana getirmez ki

Gm D
Seni bana getirmez ki

Bir Cevap Yazın

E-posta hesabınız yayımlanmayacak.