MFÖ Güllerin İçinden (Intro) (Tab) Tabları

MFÖ Güllerin İçinden (Intro) (Tab) Şarkısının Tabı

E|---------------------|-----------------------------------|
B|---------------------|-----------------------------------|
G|-2--2-2---2-0-2-0-0--|--0-2-0----0--0-----0---0-2--------|
D|---------------------|------------3------3-------3---2-3-|
A|---------------------|-----------------------------------|
E|---------------------|-----------------------------------|

E|---------------------|-----------------------------------|
B|---------------------|-----------------------------------|
G|-2--2-2---2-0-2-2-0--|--0-2-0----0--0-----0---0-2--------|
D|---------------------|------------3------3-------3---2-3-|
A|---------------------|-----------------------------------|
E|---------------------|-----------------------------------|

Bir Cevap Yazın

E-posta hesabınız yayımlanmayacak.