Müzeyyen Senar Duydum Ki Unutmuşsun (Tab) Tabları

Müzeyyen Senar Duydum Ki Unutmuşsun (Tab) Şarkısının Tabı

e|----------------|------------------|
B|----------------|------------------|
G|--3-4-3-1-------|------------------|
D|---------4-3-1--|---3-4-3-1--------|
A|----------------|-----------4-2-1--|
E|----------------|------------------|


e|-----------------|-----------------|
B|------------4-2--|-----2-----------|
G|--3-4-1-3-4------|--3-4---4-3-1-3--|
D|-----------------|-----------------|
A|-----------------|-----------------|
E|-----------------|-----------------|


e|---------------------|-------------|
B|---------------------|-------------|
G|-3-4-3-1-------------|-------------|
D|---------4-3-1-1-1&4-|---3-4-3-1---|
A|---------------------|-------------|
E|---------------------|-------------|


e|-------------------|---------------|
B|-------------------|---------------|
G|-------------------|---------------|
D|-1-2-1---------1&4-|-3-1-----------|
A|-------4-2-4-1-----|-----4-2-1-2-1-|
E|-------------------|---------------|


e|-------------------|---------------------|
B|-------------------|---------------------|
G|-------------------|---------------------|
D|-3-3&4-4-4-4-3-4-3-|-------3-4-3-1---1---|
A|-------------------|-4-2-1---------4---4-|
E|-------------------|---------------------|


e|---------------------|---------------|
B|---------------------|---------------|
G|---------------------|---------------|
D|-------------1-1-1&4-|-3-1-4---------|
A|-2-2-2-2-1-----------|-------2-1-2-1-|
E|-----------4---------|---------------|

Bir Cevap Yazın

E-posta hesabınız yayımlanmayacak.