Pilli Bebek Siyah Beyaz (tab) Tabları

Pilli Bebek Siyah Beyaz (tab) Şarkısının Tabı

Am
|--------------0-----------------------0-----------|
|--------0--------0--------------0--------0--------|
|-----5-----5--------5--------5-----5--------5-----|
|--7--------------------7--7--------------------7--|
|--------------------------------------------------|
|--------------------------------------------------|

F
|--------------0-----------------------0-----------|
|--------0--------0--------------0--------0--------|
|-----5-----5--------5--------5-----5--------5-----|
|--5--------------------5--5--------------------5--|
|--------------------------------------------------|
|--------------------------------------------------|

G
|--------------0-----------------------0-----------|
|--------0--------0--------------0--------0--------|
|-----5-----5--------5--------5-----5--------5-----|
|--3--------------------3--3--------------------3--|
|--------------------------------------------------|
|--------------------------------------------------|

E
|--------------0----------|-------3-----0----------|
|--------0--------0-------|----------0-----0-------|
|-----4-----4--------4----|----4--------------4&5--|
|--2--------------------2-|-2----------------------|
|-------------------------|------------------------|
|-------------------------|------------------------|

Not: Tablarin sarkiya uymasi icin gitarin orjinal akordu
yarim ses gevsetilerek Eb Ab Db Gb Bb Eb formatina
uydurulmasi gerekmektedir.

Bir Cevap Yazın

E-posta hesabınız yayımlanmayacak.