Ramones Spiderman Akorları

Ramones Spiderman Şarkısının Akorları

intro:  C#

verse
C#
Spiderman spiderman
does whatever a spider can
F#
spins a web, any size
C#
catches theives just like flies
G# F# C#
look out here comes the Spiderman

verse 2
C#
Is he strong listen bud
he's got radioactive blood
F#
Can he swing from a thread
C#
take a look overhead
G# F# C#
hey there there goes the spiderman

bridge
E B
In the chill of the night
F# C#
At the scene of the crime
E B
Like a streak of light
F# G#
He arrives just in time

verse 3
C#
Spiderman Spiderman
Friendly neighborhood spiderman
F#
wealth and fame, he's ignored
C#
action is his reward
G# F# C#
look out here comes the Spiderman

SOLO
e|-----------------------------------------------------------------------|
B|----------9~~~~------------------------9~~--9-9-9----------------------|
G|-------9---------11--9--------------9--------------11--9---------------|
D|---11-------------------11~~----11------------------------11~~~~-------|
A|-----------------------------------------------------------------------|
E|-----------------------------------------------------------------------|

e|----------9~~~--9-9-9------------------------------------------------------|
B|------10---------------12--10----------------9~~--9-9-9--------------------|
G|--11---------------------------11~~-------9--------------11--9-------------|
D|--------------------------------------11------------------------11~~~------|
A|---------------------------------------------------------------------------|
E|---------------------------------------------------------------------------|

e|---------------------------------------------------------------------------|
B|---9--------9--------9-----------------------------------------------------|
G|------11b13----11b13----11b13--11--9--11-11--9-----------------------------|
D|------------------------------------------------11-11-11-11-11-11-11-11----|
A|---------------------------------------------------------------------------|
E|---------------------------------------------------------------------------|

e|---------------------------------------------------------------------------|
B|---------------------------------------------------------------------------|
G|---------------------------------------------------------------------------|
D|---------------------------------------------------------------------------|
A|--11-11-11-11~~~~~~~-------------------------------------------------------|
E|---------------------------------------------------------------------------|

INTRO
e|-----------------------|
B|-----------------------|
G|-----------------------|
D|-----------------------| Repeat 4x (or follow changes in verse)
A|------------9-9-11-11--|
E|--9-9-12-12------------|



E B
In the chill of the night
F# C#
At the scene of the crime
E B
Like a streak of light
F# G#
He arrives just in time


C#
Spiderman Spiderman
Friendly neighborhood spiderman
F#
wealth and fame, he's ignored
C#
action is his reward
G# F# C#
look out here comes the Spiderman

outro:
C#
To him, life is a great big bang-up
Wherever there's hang-up
You'll find the spiderman

Bir Cevap Yazın

E-posta hesabınız yayımlanmayacak.