Red Hot Chili Peppers Fortune Faded Akorları

Red Hot Chili Peppers Fortune Faded Şarkısının Akorları


tab var işine yararmı?


INTRO

e|-------------------------------------------------------------------------|
B|-------------------------------------------------------------------------|
G|-------------------------------------------------------------------------|
D|-4444444444444444--------------------------------------------------------|
A|-4444444444444444--------------------------------------------------------|
E|-2222222222222222--------------------------------------------------------|

VERSE 1

e|-------------------------------------------------------------------------|
B|--------------------------------------------------------14-14-14---------|
G|---11----------------11---------------14-11-14-11-14-11------------------|
D|-9----11-----------9----12-11--------------------------------------------|
A|-------------------------------------------------------------------------|
E|-------------------------------------------------------------------------|

e|-------------------------------------------------------------------------|
B|-------------------------------------------------------------------------|
G|---11----------------11---------------14-11-14-11'-----------------------|
D|-9----11-----------9----12-11--------------------------------------------|
A|-------------------------------------------------------------------------|
E|-------------------------------------------------------------------------|

e|-------------------------------------------------------------------------|
B|-------------------------------------------------------------------------|
G|-------------------------------------------------------------------------|
D|-12-12-12--7-7-7----------------12-12-12--7-7-7--------------------------|
A|-12-12-12--7-7-7----------------12-12-12--7-7-7--------------------------|
E|-10-10-10--5-5-5----------------10-10-10--5-5-5--------------------------|

e|-------------------------------------------------------------------------|
B|-------------------------------------------------------------------------|
G|---11----------------11---------------14-11-14-11------------------------|
D|-9----11-----------9----12-11--------------------------------------------|
A|-------------------------------------------------------------------------|
E|-------------------------------------------------------------------------|

e|-------------------------------------------------------------------------|
B|-------------------------------------------------------------------------|
G|-------------------------------------------------------------------------|
D|-12-12-12--7-7-7----------------12-12-12--7-7-7--------------------------|
A|-12-12-12--7-7-7----------------12-12-12--7-7-7--------------------------|
E|-10-10-10--5-5-5----------------10-10-10--5-5-5--------------------------|

e|-------------------------------------------------------------------------|
B|-------------------------------------------------------------------------|
G|---11----------------11--------14-11-14-11-14-11--14-11-14-11-14-11-14-11|
D|-9----11-----------9----12-11--------------------------------------------|
A|-------------------------------------------------------------------------|
E|-------------------------------------------------------------------------|

CHORUS

e|-------------------------------------------------------------------------|
B|-------------------------------------------------------------------------|
G|-------------------------------------------------------------------------|
D|-77777777-12-7-55555555--99999999----------------------------------------|
A|-77777777-12-7-55555555--99999999----------------------------------------|
E|-55555555-10-5-33333333--77777777----------------------------------------|

e|-------------------------------------------------------------------------|
B|-------------------------------------------------------------------------|
G|-------------------------------------------------------------------------|
D|-77777777-12-7-55555555--99999999----------------------------------------|
A|-77777777-12-7-55555555--99999999----------------------------------------|
E|-55555555-10-5-33333333--77777777----------------------------------------|

VERSE 2

e|-------------------------------------------------------------------------|
B|--------------------------------------------------------14-14-14---------|
G|---11----------------11---------------14-11-14-11-14-11------------------|
D|-9----11-----------9----12-11--------------------------------------------|
A|-------------------------------------------------------------------------|
E|-------------------------------------------------------------------------|

e|-------------------------------------------------------------------------|
B|-------------------------------------------------------------------------|
G|---11----------------11---------------14-11-14-11'-----------------------|
D|-9----11-----------9----12-11--------------------------------------------|
A|-------------------------------------------------------------------------|
E|-------------------------------------------------------------------------|

e|-------------------------------------------------------------------------|
B|-------------------------------------------------------------------------|
G|-------------------------------------------------------------------------|
D|-12-12-12--7-7-7----------------12-12-12--7-7-7--------------------------|
A|-12-12-12--7-7-7----------------12-12-12--7-7-7--------------------------|
E|-10-10-10--5-5-5----------------10-10-10--5-5-5--------------------------|

e|-------------------------------------------------------------------------|
B|-------------------------------------------------------------------------|
G|---11----------------11--------14-11-14-11-14-11--14-11-14-11-14-11-14-11|
D|-9----11-----------9----12-11--------------------------------------------|
A|-------------------------------------------------------------------------|
E|-------------------------------------------------------------------------|

CHORUS

e|-------------------------------------------------------------------------|
B|-------------------------------------------------------------------------|
G|-------------------------------------------------------------------------|
D|-77777777-12-7-55555555--99999999----------------------------------------|
A|-77777777-12-7-55555555--99999999----------------------------------------|
E|-55555555-10-5-33333333--77777777----------------------------------------|

e|-------------------------------------------------------------------------|
B|-------------------------------------------------------------------------|
G|-------------------------------------------------------------------------|
D|-77777777-12-7-55555555--99999999----------------------------------------|
A|-77777777-12-7-55555555--99999999----------------------------------------|
E|-55555555-10-5-33333333--77777777----------------------------------------|

BRIDGE


e|-------------------------------------------------------------------------|
B|-------------------------------------------------------------------------|
G|-------------------------------------------------------------------------|
D|-4444444444444444--------------------------------------------------------|
A|-4444444444444444--------------------------------------------------------|
E|-2222222222222222--------------------------------------------------------|

CHORUS

e|-------------------------------------------------------------------------|
B|-------------------------------------------------------------------------|
G|-------------------------------------------------------------------------|
D|-77777777-12-7-55555555--99999999----------------------------------------|
A|-77777777-12-7-55555555--99999999----------------------------------------|
E|-55555555-10-5-33333333--77777777----------------------------------------|

e|-------------------------------------------------------------------------|
B|-------------------------------------------------------------------------|
G|-------------------------------------------------------------------------|
D|-77777777-12-7-55555555--99999999----------------------------------------|
A|-77777777-12-7-55555555--99999999----------------------------------------|
E|-55555555-10-5-33333333--77777777----------------------------------------|

e|-------------------------------------------------------------------------|
B|-------------------------------------------------------------------------|
G|-------------------------------------------------------------------------|
D|-77777777-12-7-55555555--99999999----------------------------------------|
A|-77777777-12-7-55555555--99999999----------------------------------------|
E|-55555555-10-5-33333333--77777777----------------------------------------|

e|-------------------------------------------------------------------------|
B|-------------------------------------------------------------------------|
G|-------------------------------------------------------------------------|
D|-77777777-12-7-55555555--99999999----------------------------------------|
A|-77777777-12-7-55555555--99999999----------------------------------------|
E|-55555555-10-5-33333333--77777777----------------------------------------|

END.

Bir Cevap Yazın

E-posta hesabınız yayımlanmayacak.