Şebnem Ferah Mahalle Akorları

Şebnem Ferah Mahalle Şarkısının Akorları

Bm-D5

E--------3--2--------0----------------3--2--------0-------
A--2-0-2-------2-0-2-----------2-0-2-------2-0-2----------
D-------------------------4-4-----------------------------
G--------------------------0------------------------------
B----------------------------0----------------------------
E---------------------------------------------------------



Kalbimin topraklarına mezarlar kazdım

E--------3--2--------0----------
A--2-0-2-------2-0-2------------
D-------------------------4-4---
G--------------------------0----
B----------------------------0--
E-------------------------------

Her birinin üstüne gökdelenler koydum

E--------3--2--------0----------
A--2-0-2-------2-0-2------0-0---
D--------------------------7----
G-------------------------------
B-----------------------------0-
E-------------------------------

Aklımın yapraklarını birbir kopardın

E--------3--2--------0----------
A--2-0-2-------2-0-2------------
D-------------------------4-4---
G--------------------------0----
B----------------------------0--
E-------------------------------

Binaların üst katlarına süslü teraslar yaptın

E--------3--2--------0----------
A--2-0-2-------2-0-2------0-0---
D--------------------------7----
G-------------------------------
B-----------------------------0-
E-------------------------------

Geçer gider sandım geçmedi gitti

E--------3--2--------0----------
A--2-0-2-------2-0-2------------
D-------------------------4-4---
G--------------------------0----
B----------------------------0--
E-------------------------------

Kurduğun bu mahalle, haritadan silindi

E--------3--2----------0--------
A--2-0-2-------2-0-2---2--------
D----------------------4--------
G-------------------------------
B-------------------------------
E------------------------------- x2


E5 B5
Aklımın sokaklarını arar sorarken )
C5 B5 )
Kimbilir ben kaç kalp kırdım )
E5 B5 ) Nakarat
Zamanın istasyonunu trenler geçerken )
C5 B5 )
Kimbilir kaç kez kaçırdım )

E------------------------------------------ -----------------------
A------------------------------------------ -----------------------
D------------------------------------------ -----------------------
G------------1----------------------------- -----------1-----------
B--3-2-3-2-0---0-2-3-------3-2-3-2-3-2-0--- --3-2-3-2-0--0-2-3---0-
E--------------------0-2-0----------------- x 3 -- ----------------0---




Uykumun masallarını her gece anlattın
Dinledim defalarca seni kahraman yaptım
Kurduğum mahallenin her sokağında
Utanmadın gecelerce sövdüm saydım
Geçer gider sandım geçmedi gitti
Kurduğun bu mahalle haritadan silindi



NAKARAT (tekrar)


E-2-2-2--2-2-2--2-2-2--3-3-3---2-2-2--2-2-2--2-2-2--5-5-5
A-2-2-2--2-2-2--2-2-2--3-3-3---2-2-2--2-2-2--2-2-2--5-5-5
D-----4------4------4--5-5-5-------4------4------4--7-7-7

aaaaaaaaaaaaaaa


SOLO

NAKARAT (tekrar)


OUTRO
E-2-2-2--2-2-2--2-2-2--5-5-5---2-2-2--2-2-2--2-2-2--3-3-3
A-2-2-2--2-2-2--2-2-2--5-5-5---2-2-2--2-2-2--2-2-2--3-3-3
D-----4------4------4--7-7-7-------4------4------4--5-5-5

Bir Cevap Yazın

E-posta hesabınız yayımlanmayacak.