U2 Beautiful Day Akorları

U2 Beautiful Day Şarkısının Akorları

[Intro]
A Bm D G D A
A Bm D G D A

Riff1 Intro&verse (Piano with echo)
e-0------2------2--------3------------2---0-------
B-2------3------3--------3--------3---3---2-------
G-2------4------2--------0--------2-------2-------
D-2------4------0--------0--------0-------2-------
A-0------2---------------2----------------0-------
E------------------------3------------------------
A Bm D G D A

Verse
A Bm D G D A
The heart is a bloom Shoots_ up_ through the stony ground...
A Bm D G D A
__

Riff2 Verse lead guitar
e----------------------
B-2---3---(3)----------
G-----------------4----
D----------------------
A----------------------
E----------------------

A Bm D G D A (&Riff2)

[Chorus1] (distortion)
A5 B5 D5 G5 D5 A5
It's a beautiful day
A5 B5 D5 G5 D5 A5



[Bridge1]
F#m G D A


Riff3 Bridge lead
e-9-----9-10----10--10--10----1010-9-10-9--9--9--9---
B----12----------------------------------12-12-12-12-
G-------------12--12--12--12-------------------------
D----------------------------------------------------
A----------------------------------------------------
E----------------------------------------------------

A Bm D G D A




[Bridge2]
F#m G D A

F#m G D A

[Outro]
A Bm D G
What_ you_ don't_ have_ you_ don't__ need it now...

D A

A Bm D G

D A


[Chorus4] (distortion)
A5 B5 D5 G5 D5 A5 (&Riff3)
Was a beautiful_ day_________
A5 B5 D5 G5 D5 A5 (&Riff3)

Riff4

Riff4 End
e-------2-------2-----0---------------2-----------------3---
A-2--3--------------------------2--3--------------2-3-------
G----------4-----------------------------4------4-----------
D---------------------------------------------5-------------
A-----------------------------------------------------------
E-----------------------------------------------------------

Chords:
A x02220 & 577655
Bm x24432 & 799777
D xx0232 & x57775
G 320033 & 355433
A5 x022xx & 577xxx
B5 x244xx & 799xxx
D5 xx023x & x577xx
G5 355xxx
F#m 244222
Em 022000

Bir Cevap Yazın

E-posta hesabınız yayımlanmayacak.