Zuhal Olcay Aynalar Akorları

Zuhal Olcay Aynalar Şarkısının Akorları

G--------2-4-2---------2--------------------------
D--2-4-5--------2-4-5-5-4---2-4-5-55-4-2h4h2-1----
A----------------------------------------------3--



Em C Am B7
Harmanım ben harmanım
Em C Am B7
Kırk satırlık fermanım
D G C B7
Yok dizimde dermanım
D G C B7 Am B7
Eyletmen beni,söyletmen beni,ağlatman beni
C Am B7
Aynalar,aynalar

G--4-2--------
D------5-4--2-

Em C Am B7
İster anam darılsın
Em C Am B7
ister babam darılsın
D G C B7
Vuran elin kırılsın
D G C B7 Am B7
Eyletmen beni,söyletmen beni,ağlatman beni
C Am B7
Aynalar,aynalar

G--4-2--------
D------5-4--2-

G--------------------2----------------------------------------------------------
----
D-2-4-55-4-5--55-4-5---4--2-4-55-4-2-4-1----1-22-1-2--2-1-2-4-1-2-1-----44-2-1--
----
A-----------------------------------------3-------------------------3-2-------3-
2-3-


Em C Am B7
Hüznüm sizle görülür
Em C Am B7
Saçım beyaz örülür
D G C B7
Yaşarkende ölünür
D G C B7 Am B7
Eyletmen beni,söyletmen beni,ağlatman beni
C Am B7
Aynalar,aynalar

G--4-2--------
D------5-4--2-

Em C Am B7
Yüzümde hep çizgiler
Em C Am B7
İçimde hep ezgiler
D G C B7
Uçup gitti seneler
D G C B7 Am B7
Eyletmen beni,söyletmen beni,ağlatman beni
C Am B7
Aynalar,aynalar

Bir Cevap Yazın

E-posta hesabınız yayımlanmayacak.